1000 moi-même

DEPORTIVO

Transcription : Jenko

 

 

Accords :

Gm : 355333

F :  133211

Cm : x35543

D :  x57775

A# : 688766

D#:  x6888x

 

Intro :

Gm, F, Cm, D,

Gm, F, Cm, D,

 

Riff Basse

|----------------------|   |----------------------|

|*--------------------*|   |----------------------|

|----------------------|   |----------------------|

|----0-----------------|   |----0-----------------|

|*-----3-0--0h1-0-----*|   |------3-0--0h1-0--1---|

|--3--------------3----|x3 |--3-------------------|x1

 

Gm                            F               Cm                        D

Mais dans mon monde, oh dans mon monde, Il y a du chlore dans les ornières

A voir d’ici c’est immonde, tous ces miroirs à l’envers

 

A#                           Gm                      Cm                           D

Si tous les cancres ne sont pas nés du même père, Tous les cancres se mettent la tête à l’envers

 

Gm                            F               Cm                        D

Mais dans mon monde, oh dans mon monde, Ecoute les se marrer

Y’a deux amis qui répondent, Si tu pars t’es un pompier

 

A#                           Gm             Cm                        D

J’ai jeté l’ancre, puis je l’ai ramassée à terre,

Rejeter l’ancre… putain demain c’est l’hiver

 

 

  D#           A#           D            Gm

|---------------------------------------------------|

|-8--8-8-8-8---6--6-6-6-6---7--7-7-7-7---3--3-3-3-3-|

|-8--8-8-8-8---7--7-7-7-7---7--7-7-7-7---3--3-3-3-3-|

|-8--8-8-8-8---8--8-8-8-8---7--7-7-7-7---5--5-5-5-5-|

|-6--6-6-6-6---8--8-8-8-8---5--5-5-5-5---5--5-5-5-5-|

|--------------6--6-6-6-6----------------3--3-3-3-3-|

Aie

Ce soir mon amour valse et danse

aie

Demain on verra on verra

Aie

Ce soir mon amour valse et lance

Des étoiles sous mes pas

  D#           A#           D            Gm    F

|------------------------------------------------|

|-8--8-8-8-8----------------7--7-7-7-7---3--x--1-|

|-8--8-8-8-8---7--7-7-7-7---7--7-7-7-7---3--x--2-|

|-8--8-8-8-8---8--8-8-8-8---7--7-7-7-7---5--x--3-|

|-6--6-6-6-6---8--8-8-8-8---5--5-5-5-5---5--x--3-|

|--------------6--6-6-6-6----------------3--x--1-|

 

 

Gm             F              Cm             D

Mais dans mon monde, oh dans mon monde, Ecoute mon nombril parler

Dire : « y’a mille moi-même qui m’inondent », Si je flotte je suis un sorcier

 

A#           Gm             Cm             D

J’ai jeté l’ancre, puis je l’ai ramassée à terre

Rejeter l’ancre… putain demain c’est l’hiver

 

D#       A#       D          Gm

Aie

Ce soir mon amour valse et danse

aie

Demain on verra on verra

Aie

Ce soir mon amour valse et lance

Des étoiles sous mes pas

 

D#       A#       D          Gm  F

 

 

Gm             F              Cm             D

 

 

 

DMM

http://www.deportivo.fr/